.:MUSINETWORK SCHOOL OF MUSIC:. | ¡BIENVENIDO!
Comunidad Musinetwork
Mayo 26, 2020, 12:14:42 pm *
Bienvenido(a), Visitante. Favor de ingresar o registrarse.

Ingresar con nombre de participante, contraseña y duración de la sesión
 
   Foros   Mensajes Recientes Buscar Tablero MNW Ingresar Registrarse  
Páginas: [1]
   
Autor Tema: Cómo puedo leer estos acordes?  (Leído 10740 veces)
0 Participantes y 1 Visitante están viendo este tema.
sin_ni_1
Participante
*

Puntuación: 3
Desconectado Desconectado

Mensajes: 9


« en: Julio 19, 2008, 02:18:31 pm »

INTRO : (esto va tocado junto con un teclado)


        FA       FA        FA... (6)
e|-------------------------------------|
B|--1---1------1---1-----0---0---------|
G|----------2----------2---------2-----|
D|----3---3------3---3-----3---3-------|
A|-------------------------------------|
e|--1----------1---------1-------------|

        FA       FA        FA        FA 
e|--------------------------------------------|
B|--1---1------1---1-----0---0-----1---1------|
G|----------2----------2---------2---------2--|
D|----3---3------3---3-----3---3-----3---3----|
A|--------------------------------------------|
e|--1----------1---------1---------1----------|
        C        C         G         G
e|--------------------------------------------|
B|--1---1-----1---1-----0---0-----3---3-------|
G|----------0---------0---------0---------0---|
D|----2---2-----2---2-----0---0-----0---0-----|
A|--3---------3-------------------------------|
e|----------------------3---------3-----------|


VERSOS:

        FA       FA        FA        FA
e|--------------------------------------------|
B|--1---1------1---1-----1---1-----1---1------|
G|----------2----------2---------2---------2--|
D|----3---3------3---3-----3---3-----3---3----|
A|--------------------------------------------|
e|--1----------1---------1---------1----------|
     Mira     niñita,  te voy  a  llevar a ver la     


      C        C         G         G
e|--------------------------------------------|
B|--1---1-----1---1-----0---0-----3---3-------|
G|----------0---------0---------0---------0---|
D|----2---2-----2---2-----0---0-----0---0-----|
A|--3---------3-------------------------------|
e|----------------------3---------3-----------|


mi consulta es si sirven para el piano y como se tocan?
CarlosSantos
Equipo Musinetwork
Participante Activo
****

Puntuación: 423
Desconectado Desconectado

Mensajes: 317



« + Respuesta + #1 en: Julio 21, 2008, 12:50:01 pm »

Que tal sin ni 1, la tablatura que presentas es facil de leer, se lee de izquierda a derecha, los numeros indican el traste de la guitarra y las letras del principio indican las cuerdas de la guitarra, por ejemplo.

  el 1 en la linea B, es el primer traste de la segunda cuerda, el 3 en la linea D es el tercer traste de la 4a cuerda, etc,
 
   cuando aparecendos numeros en la misma vertical,

e|-----
B|--1--
G|-----
D|-----
A|-----
E|--1--

   Indica que las dos cuerdas se toca al mismo tiempo.


Una correccion que te voy a hacer es que la linea de mero abajo, se pone una E mayuscula porque indica que es la 6a cuerda (la mas gruesa), la liena de arriba si es con e minuscula porque indica la primera cuerda, (la mas delgada)


   Si te sirve para piano pero debes conocer el diapazòn de la guitarra, saber el nombre de los trastes y asi pasarlas al piano.
  No tengo un diapazòn a la mano pero espero que alguien mas de la comunidad nos pueda ayudar.
  Salu2.

sin_ni_1
Participante
*

Puntuación: 3
Desconectado Desconectado

Mensajes: 9


« + Respuesta + #2 en: Julio 21, 2008, 10:00:56 pm »

muchas gracias tu sabes donde puedo encontrar partituras para piano?
pero q esten con clave americana?
CarlosSantos
Equipo Musinetwork
Participante Activo
****

Puntuación: 423
Desconectado Desconectado

Mensajes: 317



« + Respuesta + #3 en: Julio 22, 2008, 10:16:45 am »

muchas gracias tu sabes donde puedo encontrar partituras para piano?
pero q esten con clave americana?

   ¿Que tipo de musica buscas?  ¿a que te refieres con clave americana?

 Si buscas algo de Jazz visita este link donde nuestro amigo Mahcfly nos comparte unos libros.
  Salu2

sin_ni_1
Participante
*

Puntuación: 3
Desconectado Desconectado

Mensajes: 9


« + Respuesta + #4 en: Julio 23, 2008, 05:32:27 pm »

busko aprender hip hop!
melodias y  cosas d ehip hop!
CarlosSantos
Equipo Musinetwork
Participante Activo
****

Puntuación: 423
Desconectado Desconectado

Mensajes: 317



« + Respuesta + #5 en: Julio 23, 2008, 10:46:05 pm »

busko aprender hip hop!
melodias y  cosas d ehip hop!

hijole, ahi si me agarraste en curva, la verdad no se si haya partituras para hip hop, a ver en la red si hay.

Alax
Participante Regular
**

Puntuación: 26
Desconectado Desconectado

Mensajes: 64


WWW
« + Respuesta + #6 en: Septiembre 18, 2008, 12:43:22 am »

es la de los jaivas esa?

Alvar
Participante
*

Puntuación: 2
Desconectado Desconectado

Mensajes: 42


Alberto Álvarez Portero


« + Respuesta + #7 en: Octubre 03, 2009, 07:52:28 am »

Saludos,


          Está bien que aprendas posiciones de los acordes, así te será más fácil arpegiarlos y leerlos, pudiendo realizar los cambios de acorde más fácilmente, agilizando la lectura. Fíjate en la parte superior de la tablatura, suele especificarse el acorde ahí.


betobomba
GUITARRISTA
Participante Activo
***

Puntuación: 96
Desconectado Desconectado

Mensajes: 143


Guitarrista


« + Respuesta + #8 en: Diciembre 12, 2009, 06:10:03 am »

busko aprender hip hop!
melodias y  cosas d ehip hop!
como dice el maestro John Scofield, i´ve never used this system and have never known any guitarists that did. TAB would never be used in any professional musical situation.

Páginas: [1]
   
 
Ir a:  

Powered by MySQL Powered by PHP Powered by SMF 1.1.11 | SMF © 2006, Simple Machines LLC XHTML 1.0 válido! CSS válido!